Тема: Simpsons Theme  (Прочитано 3304 раз)

0 Пользователей и 1 Гость просматривают эту тему.

Оффлайн Uncle_Fester

  • Активный участник
  • ***
  • Сообщений: 312
  • Пол: Мужской
Simpsons Theme
« : 05/07/2012, 12:15:04 »
Всем привет!

Решил создать данную тему, чтобы помочь научиться играть основную мелодию из главной темы Симпсонов.


Версия 1:
----------------------------------------------------------------------------------------------------
----------------------10----8---------------------------------------------------------------------
---------9----11-----------------9--------------------------------------------------------------- 
--10-----------------------------------10-----------------------------------------------8----9--
-----------------------------------------------12----9--9--9--10----9--9--9--10--------------
----------------------------------------------------------------------------------------------------

Ниже приложен архив с самой мелодией (в моем исполнении). Табулатуру быстренько сделал здесь, но не моя (по памяти).

Как играть:
Вы видите перед собой прямые (1 прямая - 1 струна). Каждая прямая соответствует строго указанной струне (как правило принято изображать 1 струну (самую высокую по звучанию) в самом верху, а самую низкую по звучанию (шестую) в самом низу. остальные струны соответствуют порядку струн на гитаре (2 струна - 2 сверху и т.д.) ).
На прямых циферками обозначены лады (цифра 10 означает, что берется звук на 10 ладу струны).

Позже выложу другие версии мелодии (их множество).
Оценивайте, и если есть возможность - пробуйте выучить :)

Оффлайн Uncle_Fester

  • Активный участник
  • ***
  • Сообщений: 312
  • Пол: Мужской
Simpsons Theme
« Ответ #1 : 06/07/2012, 13:30:20 »
Версия 2:
-----------------------11----9-------------------------------------------------------------------
------------------------------------12----10-----------------------------------------------------
----------8----10--------------------------------10------------------------------------6----7--
----9----------------------------------------------------7--7--7--9----7--7--7--9-------------
---------------------------------------------------------------------------------------------------
---------------------------------------------------------------------------------------------------

Ниже приложен архив с самой мелодией (в моем исполнении). Табулатуру сделал здесь, не моя (по памяти), но переделал конец для лучшего звучания.

Можно играть после версии 1 эту версию, и потом их менять - получится прикольная мелодия :)
Продолжение следует :)

Оффлайн Uncle_Fester

  • Активный участник
  • ***
  • Сообщений: 312
  • Пол: Мужской
Simpsons Theme
« Ответ #2 : 09/07/2012, 22:42:04 »
Версия 3:
-----------------5-----------------------------------------------
----------5--7-----8--5----------------------------------------
----5----------------------5--2--------------5-5-5-5---------
-----------------------------------4-4-4-5---------------------
-----------------------------------------------------------------
-----------------------------------------------------------------

Ниже приложен архив с мелодией (в моем исполнении). Табулатуру сделал здесь, не моя (по памяти).

Кроме нот, мелодия отличается окончанием.
Скоро сделаю еще несколько версий, пробуйте играть, и не забывайте комментировать :)

Оффлайн Wanderer

  • Ветеран Форума
  • *****
  • Сообщений: 1710
  • Пол: Мужской
Simpsons Theme
« Ответ #3 : 10/07/2012, 19:21:59 »
Uncle_Fester
Спасибо за табулатуры! Было интересно самому сыграть симпсоновскую тему на гитаре. Попробовал все три версии. :) Больше всего мне понравилась первая.
«Из всех возможных решений выбирай самое доброе»
А. и Б. Стругацкие, «Волны гасят ветер»

Оффлайн Uncle_Fester

  • Активный участник
  • ***
  • Сообщений: 312
  • Пол: Мужской
Simpsons Theme
« Ответ #4 : 11/07/2012, 11:31:48 »
Wanderer, мне тоже больше нравится первая версия :)

Версия 4:
--------0--2--5--3--1------------------------------------------------------
--1----------------------2-------------------------------1-1-1-1----------
-----------------------------3------------------------4----------------------
--------------------------------4-4-4-5--4-4-4-5-------------------------
------------------------------------------------------------------------------
------------------------------------------------------------------------------

Ниже приложен архив с мелодией (в моем исполнении). Табулатуру сделал здесь, не моя (по памяти).

Продолжение следует :)

Оффлайн Uncle_Fester

  • Активный участник
  • ***
  • Сообщений: 312
  • Пол: Мужской
Simpsons Theme
« Ответ #5 : 30/07/2012, 13:49:56 »
Итак, долгое время меня не было, наконец то я вернулся :)

Версия 5:
------0-2-5-3-0-------------------------------
--1----------------1---------------------------
-----------------------2----------0------------
---------------------------4-4-4--------------
------------------------------------------------
------------------------------------------------

Как всегда - приложен архив с моей записью, табулатура сделана по памяти.

Ожидайте следующую версию :)

Оффлайн Uncle_Fester

  • Активный участник
  • ***
  • Сообщений: 312
  • Пол: Мужской
Simpsons Theme
« Ответ #6 : 06/08/2012, 22:54:03 »
После небольшого перерыва выкладываю новую версию.
Версия 6:
-------------------------------------------------------------------------------------
--------------------------------------------------------------------------------------
--------------------------------------------------------------------------------------
-----------------12--10------------------------------------------------------------
-------11--13------------11-------------------------------------------------------
--12---------------------------12--9--6-6-6-7--6-6-6-7--9-12-12-12-12----

Эта версия отличается басовым звучанием, и хорошо подходит для бас или электро гитары.
За основу взята не очень корректная версия из Интернета, отредактировал её я, и тем самым изменил смысл и звучание. Внизу приложен архив мелодией.
Скоро будет новая версия, жду Ваших комментариев :)
« Последнее редактирование: 08/08/2012, 12:39:15 от Uncle_Fester »

Оффлайн Uncle_Fester

  • Активный участник
  • ***
  • Сообщений: 312
  • Пол: Мужской
Simpsons Theme
« Ответ #7 : 18/08/2012, 23:10:14 »
Тема неактуальна? Если неактуальна, могу перестать выкладывать новые версии табулатуры, т.к. не вижу смысла...

Оффлайн crazy_simpsons

  • Старожил
  • ****
  • Сообщений: 601
  • Пол: Мужской
Simpsons Theme
« Ответ #8 : 18/08/2012, 23:50:45 »
Uncle_Fester
Тема та может и актуальна, но вот гитара есть не у всех  :(